Gtr I (E A D G B E) - 'Untitled'
Gtr II (E A D G B E) - 'Untitled'

  Q=188
  Gtr I
  E E E E E E E E   E E E E E E E E   E E E E E E E E   E E E E E E E E
|-----------------|-----------------|-----------------|-----------------|
|-----------------|-----------------|-----------------|-----------------|
|-4-4-4-4-3-3-3-3-|-6-6-6-6-3-3-3-3-|-4-4-4-4-3-3-3-3-|-6-6-6-6-3-3-3-3-|
|-6-6-6-6-4-4-4-4-|-4-4-4-4-4-4-4-4-|-6-6-6-6-4-4-4-4-|-4-4-4-4-4-4-4-4-|
|-----------------|-----------------|-----------------|-----------------|
|-----------------|-----------------|-----------------|-----------------|


  E E E E E E E E   E E E E E E E E   E E E E E E E E   E E E E E E E E
|-----------------|-----------------|-----------------|-----------------|
|-----------------|-----------------|-----------------|-----------------|
|-4-4-4-4-3-3-3-3-|-6-6-6-6-3-3-3-3-|-4-4-4-4-3-3-3-3-|-6-6-6-6-3-3-3-3-|
|-6-6-6-6-4-4-4-4-|-4-4-4-4-4-4-4-4-|-6-6-6-6-4-4-4-4-|-4-4-4-4-4-4-4-4-|
|-----------------|-----------------|-----------------|-----------------|
|-----------------|-----------------|-----------------|-----------------|


  Q  Q  E E E E   +E  E E E E E E E   Q  Q  E E E E   +E  E E E E E E E
|---------------|-------------------|---------------|-------------------|
|---------------|-------------------|---------------|-------------------|
|---------------|-------------------|---------------|-------------------|
|---------------|-------------------|---------------|-------------------|
|-6--6--6-6-6-6-|-(6)-6-6-6-6-6-6-6-|-2--2--2-2-2-2-|-(2)-2-2-2-2-2-2-2-|
|-4--4--4-4-4-4-|-(4)-4-4-4-4-4-4-4-|-0--0--0-0-0-0-|-(0)-0-0-0-0-0-0-0-|


  Q  Q  E E E E   +E  E E E E E E E   Q  Q  E E E E   +E  E E E E E E E
|---------------|-------------------|---------------|-------------------|
|---------------|-------------------|---------------|-------------------|
|---------------|-------------------|---------------|-------------------|
|-6--6--6-6-6-6-|-(6)-6-6-6-6-6-8-8-|-9--9--9-9-9-8-|-(8)-8-8-8-8-8-8-8-|
|-4--4--4-4-4-4-|-(4)-4-4-4-4-4-6-6-|-7--7--7-7-7-6-|-(6)-6-6-6-6-6-6-6-|
|---------------|-------------------|---------------|-------------------|


     PM--|   PM|     PM|   PM|   PM     PM--|   PM|     PM|   PM|   PM
  Q  E E E E E E   E E E E E E E E   Q  E E E E E E   E E E E E E E E
|----------------|-----------------|----------------|-----------------|
|----------------|-----------------|----------------|-----------------|
|----------------|-----------------|----------------|-----------------|
|----------------|-----------------|----------------|-----------------|
|-6--6-6-6-6-6-6-|-6-6-6-6-6-6-6-6-|-2--2-2-2-2-2-2-|-2-2-2-2-2-2-2-2-|
|-4--4-4-4-4-4-4-|-4-4-4-4-4-4-4-4-|-0--0-0-0-0-0-0-|-0-0-0-0-0-0-0-0-|


     PM--|   PM|     PM|   PM|   PM     PM--|   PM|
  Q  E E E E E E   E E E E E E E E   Q  E E E E E E   E E E E E E E E
|----------------|-----------------|----------------|-------------------|
|----------------|-----------------|----------------|-------------------|
|----------------|-----------------|----------------|-------6---4-------|
|-6--6-6-6-6-6-6-|-8-8-8-8-8-8-8-8-|-9--9-9-9-9-9-9-|-5-5-5-6---4-------|
|-4--4-4-4-4-4-4-|-6-6-6-6-6-6-6-6-|-7--7-7-7-7-7-7-|-6-6-6---------6---|
|----------------|-----------------|----------------|---------------4---|


        PM--|   PM|     PM|   PM|   PM     PM--|   PM|     PM|   PM|   PM
  +E  E E E E E E E   E E E E E E E E   Q  E E E E E E   E E E E E E E E
|-------------------|-----------------|----------------|-----------------|
|-------------------|-----------------|----------------|-----------------|
|-------------------|-----------------|----------------|-----------------|
|-------------------|-----------------|----------------|-----------------|
|-(6)-6-6-6-6-6-6-6-|-6-6-6-6-6-6-6-6-|-2--2-2-2-2-2-2-|-2-2-2-2-2-2-2-2-|
|-(4)-4-4-4-4-4-4-4-|-4-4-4-4-4-4-4-4-|-0--0-0-0-0-0-0-|-0-0-0-0-0-0-0-0-|


     PM--|   PM|     PM|   PM|   PM     PM--|   PM|
  Q  E E E E E E   E E E E E E E E   Q  E E E E E E   E E E  E E  E  Q
|----------------|-----------------|----------------|--------------------|
|----------------|-----------------|----------------|--------------------|
|----------------|-----------------|----------------|--------------------|
|-6--6-6-6-6-6-6-|-8-8-8-8-8-8-8-8-|-9--9-9-9-9-9-9-|-8-8-8-12---12-12\--|
|-4--4-4-4-4-4-4-|-6-6-6-6-6-6-6-6-|-7--7-7-7-7-7-7-|-6-6-6-10---10-10\--|
|----------------|-----------------|----------------|--------------------|


  Q  Q  E E E E   +E  E E E E E E E   Q  Q  E E E E   +E  E E E E E E E
|---------------|-------------------|---------------|-------------------|
|---------------|-------------------|---------------|-------------------|
|---------------|-------------------|---------------|-------------------|
|---------------|-------------------|-9--9--9-9-9-9-|-(9)-9-9-9-9-9-9-9-|
|-6--6--6-6-6-6-|-(6)-6-6-6-6-6-6-6-|-7--7--7-7-7-7-|-(7)-7-7-7-7-7-7-7-|
|-4--4--4-4-4-4-|-(4)-4-4-4-4-4-4-4-|---------------|-------------------|


  Q  Q  E E E E   +E  E E E E E E E   Q  Q  E E E E   +E  E E E E E E E
|---------------|-------------------|---------------|-------------------|
|---------------|-------------------|---------------|-------------------|
|---------------|-------------------|---------------|-------------------|
|-6--6--6-6-6-6-|-(6)-6-6-6-6-6-8-8-|-9--9--9-9-9-8-|-(8)-8-8-8-8-8-8-8-|
|-4--4--4-4-4-4-|-(4)-4-4-4-4-4-6-6-|-7--7--7-7-7-6-|-(6)-6-6-6-6-6-6-6-|
|---------------|-------------------|---------------|-------------------|


  Q  Q  E E E E   +E  E E E E E E E   Q  Q  E E E E   +E  E E E E E E E
|---------------|-------------------|---------------|-------------------|
|---------------|-------------------|---------------|-------------------|
|---------------|-------------------|---------------|-------------------|
|---------------|-------------------|-9--9--9-9-9-9-|-(9)-9-9-9-9-9-9-9-|
|-6--6--6-6-6-6-|-(6)-6-6-6-6-6-6-6-|-7--7--7-7-7-7-|-(7)-7-7-7-7-7-7-7-|
|-4--4--4-4-4-4-|-(4)-4-4-4-4-4-4-4-|---------------|-------------------|


  Q  Q  E E E E   +E  E E E E E E E   Q  Q  E E E E   +E  E E E E E E E
|---------------|-------------------|---------------|-------------------|
|---------------|-------------------|---------------|-------------------|
|---------------|-------------------|---------------|-------------------|
|-6--6--6-6-6-6-|-(6)-6-6-6-6-6-8-8-|-9--9--9-9-9-8-|-(8)-8-8-8-8-8-8-8-|
|-4--4--4-4-4-4-|-(4)-4-4-4-4-4-6-6-|-7--7--7-7-7-6-|-(6)-6-6-6-6-6-6-6-|
|---------------|-------------------|---------------|-------------------|


  Q  Q  E E E E   +E  E E E E E E E   Q  Q  E E E E   +E  E E E E E E E
|---------------|-------------------|---------------|-------------------|
|---------------|-------------------|---------------|-------------------|
|---------------|-------------------|---------------|-------------------|
|---------------|-------------------|---------------|-------------------|
|-6--6--6-6-6-6-|-(6)-6-6-6-6-6-6-6-|-2--2--2-2-2-2-|-(2)-2-2-2-2-2-2-2-|
|-4--4--4-4-4-4-|-(4)-4-4-4-4-4-4-4-|-0--0--0-0-0-0-|-(0)-0-0-0-0-0-0-0-|
|
| W                Q    E E E E E E   W                Q    E E E E E E
|---------------|-------------------|---------------|-------------------|
|---------------|-------------------|---------------|-------------------|
|---------------|-------------------|---------------|-------------------|
|---------------|-------------------|---------------|-------------------|
|---------------|---------------4-6-|---------------|-------6-6-4-4-----|
|---------------|-------4-4-6-7-----|---------------|---------------7-7-|


  Q  Q  E E E E   +E  E E E E E E E   Q   Q   E E E E   +E  E E E E E E E
|---------------|-------------------|-----------------|-------------------|
|---------------|-------------------|-----------------|-------------------|
|---------------|-------------------|-----------------|-------------------|
|-6--6--6-6-6-6-|-(6)-6-6-6-6-6-8-8-|-9---9---9-9-9-8-|-(8)-8-8-8-8-8-8-8-|
|-4--4--4-4-4-4-|-(4)-4-4-4-4-4-6-6-|-7---7---7-7-7-6-|-(6)-6-6-6-6-6-6-6-|
|---------------|-------------------|-----------------|-------------------|
|
| W                Q    E E E E E E   E E E E E E E E   +E  E E E Q   Q
|---------------|-------------------|-----------------|-------------------|
|---------------|-------------------|-----------------|-------------------|
|---------------|-------------------|-----------------|-------------------|
|---------------|-------------------|-----------------|-------------------|
|---------------|-------------------|-----------------|-------------------|
|---------------|-------7-7-6-6-7-7-|-6-6-6-6-6-5-4-3-|-(3)-3-3-3-6---3---|


     PM--|   PM|     PM|   PM|   PM     PM--|   PM|     PM|   PM|   PM
  Q  E E E E E E   E E E E E E E E   Q  E E E E E E   E E E E E E E E
|----------------|-----------------|----------------|-----------------|
|----------------|-----------------|----------------|-----------------|
|----------------|-----------------|----------------|-----------------|
|----------------|-----------------|----------------|-----------------|
|-6--6-6-6-6-6-6-|-6-6-6-6-6-6-6-6-|-2--2-2-2-2-2-2-|-2-2-2-2-2-2-2-2-|
|-4--4-4-4-4-4-4-|-4-4-4-4-4-4-4-4-|-0--0-0-0-0-0-0-|-0-0-0-0-0-0-0-0-|


     PM--|   PM|     PM|   PM|   PM     PM--|   PM|
  Q  E E E E E E   E E E E E E E E   Q  E E E E E E   E E E E E E E E
|----------------|-----------------|----------------|-----------------|
|----------------|-----------------|----------------|-----------------|
|----------------|-----------------|----------------|-------6---4-----|
|-6--6-6-6-6-6-6-|-8-8-8-8-8-8-8-8-|-9--9-9-9-9-9-9-|-5-5-5-6---4-----|
|-4--4-4-4-4-4-4-|-6-6-6-6-6-6-6-6-|-7--7-7-7-7-7-7-|-6-6-6---------6-|
|----------------|-----------------|----------------|---------------4-|


        PM--|   PM|     PM|   PM|   PM     PM--|   PM|     PM|   PM|   PM
  +E  E E E E E E E   E E E E E E E E   Q  E E E E E E   E E E E E E E E
|-------------------|-----------------|----------------|-----------------|
|-------------------|-----------------|----------------|-----------------|
|-------------------|-----------------|----------------|-----------------|
|-------------------|-----------------|----------------|-----------------|
|-(6)-6-6-6-6-6-6-6-|-6-6-6-6-6-6-6-6-|-2--2-2-2-2-2-2-|-2-2-2-2-2-2-2-2-|
|-(4)-4-4-4-4-4-4-4-|-4-4-4-4-4-4-4-4-|-0--0-0-0-0-0-0-|-0-0-0-0-0-0-0-0-|


     PM--|   PM|     PM|   PM|   PM     PM--|   PM|
  Q  E E E E E E   E E E E E E E E   Q  E E E E E E   E E E  E E  E  Q
|----------------|-----------------|----------------|--------------------|
|----------------|-----------------|----------------|--------------------|
|----------------|-----------------|----------------|--------------------|
|-6--6-6-6-6-6-6-|-8-8-8-8-8-8-8-8-|-9--9-9-9-9-9-9-|-8-8-8-12---12-12\--|
|-4--4-4-4-4-4-4-|-6-6-6-6-6-6-6-6-|-7--7-7-7-7-7-7-|-6-6-6-10---10-10\--|
|----------------|-----------------|----------------|--------------------|


  Q  Q  E E E E   +E  E E E E E E E   Q  Q  E E E E   +E  E E E E E E E
|---------------|-------------------|---------------|-------------------|
|---------------|-------------------|---------------|-------------------|
|---------------|-------------------|---------------|-------------------|
|---------------|-------------------|-9--9--9-9-9-9-|-(9)-9-9-9-9-9-9-9-|
|-6--6--6-6-6-6-|-(6)-6-6-6-6-6-6-6-|-7--7--7-7-7-7-|-(7)-7-7-7-7-7-7-7-|
|-4--4--4-4-4-4-|-(4)-4-4-4-4-4-4-4-|---------------|-------------------|


  Q  Q  E E E E   +E  E E E E E E E   Q  Q  E E E E   +E  E E E E E E E
|---------------|-------------------|---------------|-------------------|
|---------------|-------------------|---------------|-------------------|
|---------------|-------------------|---------------|-------------------|
|-6--6--6-6-6-6-|-(6)-6-6-6-6-6-8-8-|-9--9--9-9-9-8-|-(8)-8-8-8-8-8-8-8-|
|-4--4--4-4-4-4-|-(4)-4-4-4-4-4-6-6-|-7--7--7-7-7-6-|-(6)-6-6-6-6-6-6-6-|
|---------------|-------------------|---------------|-------------------|


  Q  Q  E E E E   +E  E E E E E E E   Q  Q  E E E E   +E  E E E E E E E
|---------------|-------------------|---------------|-------------------|
|---------------|-------------------|---------------|-------------------|
|---------------|-------------------|---------------|-------------------|
|---------------|-------------------|-9--9--9-9-9-9-|-(9)-9-9-9-9-9-9-9-|
|-6--6--6-6-6-6-|-(6)-6-6-6-6-6-6-6-|-7--7--7-7-7-7-|-(7)-7-7-7-7-7-7-7-|
|-4--4--4-4-4-4-|-(4)-4-4-4-4-4-4-4-|---------------|-------------------|


  Q  Q  E E E E   +E  E E E E E E E   Q  Q  E E E E   +E  E E E E E E E
|---------------|-------------------|---------------|-------------------|
|---------------|-------------------|---------------|-------------------|
|---------------|-------------------|---------------|-------------------|
|-6--6--6-6-6-6-|-(6)-6-6-6-6-6-8-8-|-9--9--9-9-9-8-|-(8)-8-8-8-8-8-8-8-|
|-4--4--4-4-4-4-|-(4)-4-4-4-4-4-6-6-|-7--7--7-7-7-6-|-(6)-6-6-6-6-6-6-6-|
|---------------|-------------------|---------------|-------------------|


  Q  Q  E E E E   +E  E E E E E E E   Q  Q  E E E E   +E  E E E E E E E
|---------------|-------------------|---------------|-------------------|
|---------------|-------------------|---------------|-------------------|
|---------------|-------------------|---------------|-------------------|
|---------------|-------------------|---------------|-------------------|
|-6--6--6-6-6-6-|-(6)-6-6-6-6-6-6-6-|-2--2--2-2-2-2-|-(2)-2-2-2-2-2-2-2-|
|-4--4--4-4-4-4-|-(4)-4-4-4-4-4-4-4-|-0--0--0-0-0-0-|-(0)-0-0-0-0-0-0-0-|
|
| W                Q    E E E E E E   W                Q    E E E E E E
|---------------|-------------------|---------------|-------------------|
|---------------|-------------------|---------------|-------------------|
|---------------|-------------------|---------------|-------------------|
|---------------|-------------------|---------------|-------------------|
|---------------|---------------4-6-|---------------|-------6-6-4-4-----|
|---------------|-------4-4-6-7-----|---------------|---------------7-7-|


  Q  Q  E E E E   +E  E E E E E E E   Q   Q   E E E E   +E  E E E E E E E
|---------------|-------------------|-----------------|-------------------|
|---------------|-------------------|-----------------|-------------------|
|---------------|-------------------|-----------------|-------------------|
|-6--6--6-6-6-6-|-(6)-6-6-6-6-6-8-8-|-9---9---9-9-9-8-|-(8)-8-8-8-8-8-8-8-|
|-4--4--4-4-4-4-|-(4)-4-4-4-4-4-6-6-|-7---7---7-7-7-6-|-(6)-6-6-6-6-6-6-6-|
|---------------|-------------------|-----------------|-------------------|
|
| W                Q    E E E E E E   E E E E E E E E   +E  E E E Q   Q
|---------------|-------------------|-----------------|-------------------|
|---------------|-------------------|-----------------|-------------------|
|---------------|-------------------|-----------------|-------------------|
|---------------|-------------------|-----------------|-------------------|
|---------------|-------------------|-----------------|-------------------|
|---------------|-------7-7-6-6-7-7-|-6-6-6-6-6-5-4-3-|-(3)-3-3-3-6---3---|


  Q  Q  E E E E   +E  E E E E E E E   Q  Q  E E E E   +E  E E E E E E E
|---------------|-------------------|---------------|-------------------|
|---------------|-------------------|---------------|-------------------|
|---------------|-------------------|---------------|-------------------|
|---------------|-------------------|---------------|-------------------|
|-6--6--6-6-6-6-|-(6)-6-6-6-6-6-6-6-|-2--2--2-2-2-2-|-(2)-2-2-2-2-2-2-2-|
|-4--4--4-4-4-4-|-(4)-4-4-4-4-4-4-4-|-0--0--0-0-0-0-|-(0)-0-0-0-0-0-0-0-|
|
| W                Q    E E E E E E   W                Q    E E E E E E
|---------------|-------------------|---------------|-------------------|
|---------------|-------------------|---------------|-------------------|
|---------------|-------------------|---------------|-------------------|
|---------------|-------------------|---------------|-------------------|
|---------------|---------------4-6-|---------------|-------6-6-4-4-----|
|---------------|-------4-4-6-7-----|---------------|---------------7-7-|


  Q  Q  E E E E   +E  E E E E E E E   Q  Q   E E E E   +E  E E E E E E E
|---------------|-------------------|----------------|-------------------|
|---------------|-------------------|----------------|-------------------|
|---------------|-------------------|----------------|-------------------|
|-6--6--6-6-6-6-|-(6)-6-6-6-6-6-8-8-|-9--9---9-9-9-8-|-(8)-8-8-8-8-8-8-8-|
|-4--4--4-4-4-4-|-(4)-4-4-4-4-4-6-6-|-7--7---7-7-7-6-|-(6)-6-6-6-6-6-6-6-|
|---------------|-------------------|----------------|-------------------|
|
| W                Q    E E E E E E   Q  E E E E E E   +E  E E E E E E E
|---------------|-------------------|----------------|-------------------|
|---------------|-------------------|----------------|-------------------|
|---------------|-------------------|----------------|-------------------|
|---------------|-------------4-5-6-|-5--5-5-5-5-5-6-|-(6)-8-8-8-8-8-8-8-|
|---------------|-------6-6-7-------|----------------|-------------------|
|---------------|-------------------|----------------|-------------------|


  Q  Q  E E E E   +E  E E E E E E E   Q  Q  E E E E   +E  E E E E E E E
|---------------|-------------------|---------------|-------------------|
|---------------|-------------------|---------------|-------------------|
|---------------|-------------------|---------------|-------------------|
|---------------|-------------------|-9--9--9-9-9-9-|-(9)-9-9-9-9-9-9-9-|
|-6--6--6-6-6-6-|-(6)-6-6-6-6-6-6-6-|-7--7--7-7-7-7-|-(7)-7-7-7-7-7-7-7-|
|-4--4--4-4-4-4-|-(4)-4-4-4-4-4-4-4-|---------------|-------------------|


  Q  Q  E E E E   +E  E E E E E E E   Q  Q  E E E E   +E  E E E E E E E
|---------------|-------------------|---------------|-------------------|
|---------------|-------------------|---------------|-------------------|
|---------------|-------------------|---------------|-------------------|
|-6--6--6-6-6-6-|-(6)-6-6-6-6-6-8-8-|-9--9--9-9-9-8-|-(8)-8-8-8-8-8-8-8-|
|-4--4--4-4-4-4-|-(4)-4-4-4-4-4-6-6-|-7--7--7-7-7-6-|-(6)-6-6-6-6-6-6-6-|
|---------------|-------------------|---------------|-------------------|


  Q  Q  E E E E   +E  E E E E E E E   Q  Q  E E E E   +E  E E E E E E E
|---------------|-------------------|---------------|-------------------|
|---------------|-------------------|---------------|-------------------|
|---------------|-------------------|---------------|-------------------|
|---------------|-------------------|-9--9--9-9-9-9-|-(9)-9-9-9-9-9-9-9-|
|-6--6--6-6-6-6-|-(6)-6-6-6-6-6-6-6-|-7--7--7-7-7-7-|-(7)-7-7-7-7-7-7-7-|
|-4--4--4-4-4-4-|-(4)-4-4-4-4-4-4-4-|---------------|-------------------|


  Q  Q  E E E E   +E  E E E E E E E   Q  Q  E E E E   +E  E E E E E E E
|---------------|-------------------|---------------|-------------------|
|---------------|-------------------|---------------|-------------------|
|---------------|-------------------|---------------|-------------------|
|-6--6--6-6-6-6-|-(6)-6-6-6-6-6-8-8-|-9--9--9-9-9-8-|-(8)-8-8-8-8-8-8-8-|
|-4--4--4-4-4-4-|-(4)-4-4-4-4-4-6-6-|-7--7--7-7-7-6-|-(6)-6-6-6-6-6-6-6-|
|---------------|-------------------|---------------|-------------------|


  E E E E Q  E E   E E Q  E E E E   E E E E E E Q    E E E E E E E E
|----------------|----------------|----------------|-----------------|
|----------------|----------------|----------------|-----------------|
|----------------|----------------|----------------|-----------------|
|----------------|----------------|----------------|-----------------|
|-------4-6------|---4-6----------|-----------4-6--|-------4-6-4-----|
|-4-6-7------4-6-|-7------7-6-4-4-|---4-4-6-7------|-4-6-7-------7-6-|


  E E E E Q  E E   E E Q  E E E E   E E E E E E E E   E Q
|----------------|----------------|-----------------|---------|
|----------------|----------------|-----------------|---------|
|----------------|----------------|-----------------|---------|
|----------------|----------------|-----------------|---------|
|-------4-6------|---4-6----------|-----------4-6-4-|---------|
|-4-6-7------4-6-|-7------7-6-4-4-|---4-4-6-7-------|-7-4\----|


|-|
|-|
|-|
|-|
|-|
|-|


|-|
|-|
|-|
|-|
|-|
|-|



Duration Legend
---------------
W - whole; H - half; Q - quarter; E - 8th; S - 16th; T - 32nd; X - 64th; a - acciaccatura
+ - note tied to previous; . - note dotted; .. - note double dotted
Uncapitalized letters represent notes that are staccato (1/2 duration)
Irregular groupings are notated above the duration line
Duration letters will always appear directly above the note/fret number it represents the
duration for.  Duration letters with no fret number below them represent rests.  Multi-
bar rests are notated in the form Wxn, where n is the number of bars to rest for.  Low
melody durations appear below the staff

Tablature Legend
----------------
 h   - hammer-on
 p   - pull-off
 b   - bend
 pb  - pre-bend
 r   - bend release (if no number after the r, then release immediately)
 /\  - slide into or out of (from/to "nowhere")
 s   - legato slide
 S   - shift slide
<n> - natural harmonic
[n]  - artificial harmonic
n(n) - tapped harmonic
 ~   - vibrato
 tr  - trill
 T   - tap
 TP  - trem. picking
 PM  - palm muting
\n/  - tremolo bar dip; n = amount to dip
 \n  - tremolo bar down
 n/  - tremolo bar up
/n\  - tremolo bar inverted dip
 =   - hold bend; also acts as connecting device for hammers/pulls
 <> - volume swell (louder/softer)
 x   - on rhythm slash represents muted slash
 o   - on rhythm slash represents single note slash

Misc Legend
-----------
 |  - bar
||  - double bar
||o - repeat start
o|| - repeat end
*|  - double bar (ending)
 :  - bar (freetime)
 $  - Segno
 &  - Coda
Tempo markers - <E/E./Q/Q./H/H.> = BPM(8/16=s8/s16), where s8 = swing 8ths, s16 = swing 16ths


** Generated using Power Tab Editor by Brad Larsen: The Official Power Tab Web Site